ISO-10303-21;
HEADER;
FILE_DESCRIPTION (( 'STEP AP214' ),
    '1' );
FILE_NAME ('BS1ISOK100104 FULLVAC.STEP',
    '2024-05-22T08:58:25',
    ( '' ),
    ( '' ),
    'SwSTEP 2.0',
    'SolidWorks 2017',
    '' );
FILE_SCHEMA (( 'AUTOMOTIVE_DESIGN' ));
ENDSEC;

DATA;
#1 = CIRCLE ( 'NONE', #68, 65.00000000000000000 ) ;
#2 = APPLICATION_CONTEXT ( 'automotive_design' ) ;
#3 = DIRECTION ( 'NONE',  ( 0.0000000000000000000, 0.0000000000000000000, 1.000000000000000000 ) ) ;
#4 = EDGE_LOOP ( 'NONE', ( #242 ) ) ;
#5 = VERTEX_POINT ( 'NONE', #309 ) ;
#6 = ADVANCED_FACE ( 'NONE', ( #240, #147 ), #210, .T. ) ;
#7 = CARTESIAN_POINT ( 'NONE',  ( 0.0000000000000000000, -3.510416792694058600, 0.0000000000000000000 ) ) ;
#8 = UNCERTAINTY_MEASURE_WITH_UNIT (LENGTH_MEASURE( 1.000000000000000100E-005 ), #373, 'distance_accuracy_value', 'NONE');
#9 = FACE_OUTER_BOUND ( 'NONE', #345, .T. ) ;
#10 = VERTEX_POINT ( 'NONE', #198 ) ;
#11 = VERTEX_POINT ( 'NONE', #140 ) ;
#12 = EDGE_LOOP ( 'NONE', ( #287 ) ) ;
#13 = MECHANICAL_DESIGN_GEOMETRIC_PRESENTATION_REPRESENTATION (  '', ( #255 ), #48 ) ;
#14 = DIRECTION ( 'NONE',  ( 0.0000000000000000000, 1.000000000000000000, 0.0000000000000000000 ) ) ;
#15 = CARTESIAN_POINT ( 'NONE',  ( 51.00000000000000000, -7.000000000000008900, 0.0000000000000000000 ) ) ;
#16 = DIRECTION ( 'NONE',  ( 0.0000000000000000000, -1.000000000000000000, -0.0000000000000000000 ) ) ;
#17 = EDGE_LOOP ( 'NONE', ( #302 ) ) ;
#18 = AXIS2_PLACEMENT_3D ( 'NONE', #362, #179, #96 ) ;
#19 = DIRECTION ( 'NONE',  ( 0.0000000000000000000, 0.0000000000000000000, -1.000000000000000000 ) ) ;
#20 = DIRECTION ( 'NONE',  ( 0.0000000000000000000, 0.0000000000000000000, 1.000000000000000000 ) ) ;
#21 = ORIENTED_EDGE ( 'NONE', *, *, #78, .T. ) ;
#22 = DIRECTION ( 'NONE',  ( 0.0000000000000000000, 0.0000000000000000000, 1.000000000000000000 ) ) ;
#23 = CARTESIAN_POINT ( 'NONE',  ( 0.0000000000000000000, 0.0000000000000000000, 0.0000000000000000000 ) ) ;
#24 = CARTESIAN_POINT ( 'NONE',  ( 0.0000000000000000000, -3.510416792694058600, 64.82352941176469600 ) ) ;
#25 = CYLINDRICAL_SURFACE ( 'NONE', #196, 52.10000000000000100 ) ;
#26 = CYLINDRICAL_SURFACE ( 'NONE', #18, 65.00000000000000000 ) ;
#27 = APPLICATION_CONTEXT ( 'automotive_design' ) ;
#28 = DIRECTION ( 'NONE',  ( 0.0000000000000000000, 1.000000000000000000, 0.0000000000000000000 ) ) ;
#29 = ORIENTED_EDGE ( 'NONE', *, *, #125, .T. ) ;
#30 = AXIS2_PLACEMENT_3D ( 'NONE', #257, #31, #61 ) ;
#31 = DIRECTION ( 'NONE',  ( 0.0000000000000000000, 1.000000000000000000, 0.0000000000000000000 ) ) ;
#32 = CARTESIAN_POINT ( 'NONE',  ( 0.0000000000000000000, -7.000000000000006200, 0.0000000000000000000 ) ) ;
#33 = FACE_BOUND ( 'NONE', #74, .T. ) ;
#34 = ADVANCED_FACE ( 'NONE', ( #164, #274 ), #87, .F. ) ;
#35 = AXIS2_PLACEMENT_3D ( 'NONE', #252, #271, #282 ) ;
#36 = ORIENTED_EDGE ( 'NONE', *, *, #141, .T. ) ;
#37 = FACE_OUTER_BOUND ( 'NONE', #194, .T. ) ;
#38 = ADVANCED_FACE ( 'NONE', ( #106, #354 ), #25, .F. ) ;
#39 = CARTESIAN_POINT ( 'NONE',  ( 0.0000000000000000000, -10.00000000000000900, 0.0000000000000000000 ) ) ;
#40 = EDGE_LOOP ( 'NONE', ( #221 ) ) ;
#41 = DIRECTION ( 'NONE',  ( 0.0000000000000000000, 0.0000000000000000000, -1.000000000000000000 ) ) ;
#42 = CONICAL_SURFACE ( 'NONE', #251, 64.20000000000000300, 0.7853981633974450600 ) ;
#43 = DIRECTION ( 'NONE',  ( 0.0000000000000000000, 0.0000000000000000000, -1.000000000000000000 ) ) ;
#44 = DIRECTION ( 'NONE',  ( 0.0000000000000000000, 1.000000000000000000, 0.0000000000000000000 ) ) ;
#45 = CARTESIAN_POINT ( 'NONE',  ( 0.0000000000000000000, -4.500000000000004400, 0.0000000000000000000 ) ) ;
#46 = ORIENTED_EDGE ( 'NONE', *, *, #57, .T. ) ;
#47 = PLANE ( 'NONE',  #301 ) ;
#48 =( GEOMETRIC_REPRESENTATION_CONTEXT ( 3 ) GLOBAL_UNCERTAINTY_ASSIGNED_CONTEXT ( ( #334 ) ) GLOBAL_UNIT_ASSIGNED_CONTEXT ( ( #72, #246, #105 ) ) REPRESENTATION_CONTEXT ( 'NONE', 'WORKASPACE' ) );
#49 = DIRECTION ( 'NONE',  ( 0.0000000000000000000, 0.0000000000000000000, 1.000000000000000000 ) ) ;
#50 = ORIENTED_EDGE ( 'NONE', *, *, #154, .F. ) ;
#51 = DIRECTION ( 'NONE',  ( 0.0000000000000000000, 0.0000000000000000000, -1.000000000000000000 ) ) ;
#52 =( NAMED_UNIT ( * ) PLANE_ANGLE_UNIT ( ) SI_UNIT ( $, .RADIAN. ) );
#53 = SURFACE_SIDE_STYLE ('',( #265 ) ) ;
#54 = CARTESIAN_POINT ( 'NONE',  ( 0.0000000000000000000, -11.20000000000000800, 65.00000000000000000 ) ) ;
#55 = ORIENTED_EDGE ( 'NONE', *, *, #154, .T. ) ;
#56 = VERTEX_POINT ( 'NONE', #227 ) ;
#57 = EDGE_CURVE ( 'NONE', #358, #358, #189, .T. ) ;
#58 = CYLINDRICAL_SURFACE ( 'NONE', #321, 50.40000000000000600 ) ;
#59 = CARTESIAN_POINT ( 'NONE',  ( 0.0000000000000000000, 140.3610531992765100, 0.0000000000000000000 ) ) ;
#60 = ORIENTED_EDGE ( 'NONE', *, *, #260, .F. ) ;
#61 = DIRECTION ( 'NONE',  ( 0.0000000000000000000, 0.0000000000000000000, 1.000000000000000000 ) ) ;
#62 = EDGE_CURVE ( 'NONE', #153, #153, #254, .T. ) ;
#63 = DIRECTION ( 'NONE',  ( 0.0000000000000000000, 1.000000000000000000, 0.0000000000000000000 ) ) ;
#64 = DIRECTION ( 'NONE',  ( 0.0000000000000000000, 0.0000000000000000000, -1.000000000000000000 ) ) ;
#65 = EDGE_LOOP ( 'NONE', ( #137 ) ) ;
#66 = EDGE_LOOP ( 'NONE', ( #156 ) ) ;
#67 = VERTEX_POINT ( 'NONE', #371 ) ;
#68 = AXIS2_PLACEMENT_3D ( 'NONE', #267, #63, #161 ) ;
#69 =( GEOMETRIC_REPRESENTATION_CONTEXT ( 3 ) GLOBAL_UNCERTAINTY_ASSIGNED_CONTEXT ( ( #8 ) ) GLOBAL_UNIT_ASSIGNED_CONTEXT ( ( #373, #142, #304 ) ) REPRESENTATION_CONTEXT ( 'NONE', 'WORKASPACE' ) );
#70 = EDGE_LOOP ( 'NONE', ( #124 ) ) ;
#71 = DIRECTION ( 'NONE',  ( 0.0000000000000000000, 1.000000000000000000, 0.0000000000000000000 ) ) ;
#72 =( LENGTH_UNIT ( ) NAMED_UNIT ( * ) SI_UNIT ( .MILLI., .METRE. ) );
#73 = DIRECTION ( 'NONE',  ( -0.0000000000000000000, 1.000000000000000000, -0.0000000000000000000 ) ) ;
#74 = EDGE_LOOP ( 'NONE', ( #169 ) ) ;
#75 = DIRECTION ( 'NONE',  ( 0.0000000000000000000, 0.0000000000000000000, 1.000000000000000000 ) ) ;
#76 = VERTEX_POINT ( 'NONE', #24 ) ;
#77 = CARTESIAN_POINT ( 'NONE',  ( 0.0000000000000000000, -6.688194301613425100, 0.0000000000000000000 ) ) ;
#78 = EDGE_CURVE ( 'NONE', #76, #76, #247, .T. ) ;
#79 = AXIS2_PLACEMENT_3D ( 'NONE', #228, #175, #232 ) ;
#80 = DIRECTION ( 'NONE',  ( 0.0000000000000000000, 0.0000000000000000000, 1.000000000000000000 ) ) ;
#81 = CARTESIAN_POINT ( 'NONE',  ( 0.0000000000000000000, -6.489583207305955200, 64.82352941176471000 ) ) ;
#82 = EDGE_LOOP ( 'NONE', ( #178 ) ) ;
#83 = PRESENTATION_STYLE_ASSIGNMENT (( #281 ) ) ;
#84 = CARTESIAN_POINT ( 'NONE',  ( 0.0000000000000000000, -6.938893903907228400E-015, 64.20000000000000300 ) ) ;
#85 = EDGE_CURVE ( 'NONE', #11, #11, #173, .T. ) ;
#86 = CARTESIAN_POINT ( 'NONE',  ( 0.0000000000000000000, -0.8000000000000072600, 65.00000000000000000 ) ) ;
#87 = CYLINDRICAL_SURFACE ( 'NONE', #266, 62.50000000000000000 ) ;
#88 = FILL_AREA_STYLE_COLOUR ( '', #149 ) ;
#89 = VERTEX_POINT ( 'NONE', #277 ) ;
#90 = FACE_OUTER_BOUND ( 'NONE', #102, .T. ) ;
#91 = EDGE_LOOP ( 'NONE', ( #185 ) ) ;
#92 = AXIS2_PLACEMENT_3D ( 'NONE', #104, #157, #98 ) ;
#93 = CIRCLE ( 'NONE', #131, 50.40000000000000600 ) ;
#94 = DIRECTION ( 'NONE',  ( -0.0000000000000000000, -1.000000000000000000, -0.0000000000000000000 ) ) ;
#95 = ADVANCED_FACE ( 'NONE', ( #317, #296 ), #132, .T. ) ;
#96 = DIRECTION ( 'NONE',  ( 0.0000000000000000000, 0.0000000000000000000, 1.000000000000000000 ) ) ;
#97 = ORIENTED_EDGE ( 'NONE', *, *, #139, .T. ) ;
#98 = DIRECTION ( 'NONE',  ( 0.0000000000000000000, 0.0000000000000000000, 1.000000000000000000 ) ) ;
#99 = FACE_OUTER_BOUND ( 'NONE', #4, .T. ) ;
#100 = ADVANCED_FACE ( 'NONE', ( #180, #291 ), #209, .T. ) ;
#101 =( GEOMETRIC_REPRESENTATION_CONTEXT ( 3 ) GLOBAL_UNCERTAINTY_ASSIGNED_CONTEXT ( ( #205 ) ) GLOBAL_UNIT_ASSIGNED_CONTEXT ( ( #171, #52, #172 ) ) REPRESENTATION_CONTEXT ( 'NONE', 'WORKASPACE' ) );
#102 = EDGE_LOOP ( 'NONE', ( #250 ) ) ;
#103 = CIRCLE ( 'NONE', #114, 51.07500000000000300 ) ;
#104 = CARTESIAN_POINT ( 'NONE',  ( 0.0000000000000000000, -11.20000000000000800, 0.0000000000000000000 ) ) ;
#105 =( NAMED_UNIT ( * ) SI_UNIT ( $, .STERADIAN. ) SOLID_ANGLE_UNIT ( ) );
#106 = FACE_OUTER_BOUND ( 'NONE', #66, .T. ) ;
#107 = FACE_OUTER_BOUND ( 'NONE', #91, .T. ) ;
#108 = DIRECTION ( 'NONE',  ( 0.0000000000000000000, 1.000000000000000000, 0.0000000000000000000 ) ) ;
#109 = ORIENTED_EDGE ( 'NONE', *, *, #162, .F. ) ;
#110 = CARTESIAN_POINT ( 'NONE',  ( 0.0000000000000000000, -5.000000000000008000, 0.0000000000000000000 ) ) ;
#111 = FACE_OUTER_BOUND ( 'NONE', #145, .T. ) ;
#112 = PRODUCT_DEFINITION_SHAPE ( 'NONE', 'NONE',  #261 ) ;
#113 = CARTESIAN_POINT ( 'NONE',  ( 0.0000000000000000000, -7.000000000000006200, -52.10000000000000100 ) ) ;
#114 = AXIS2_PLACEMENT_3D ( 'NONE', #163, #193, #195 ) ;
#115 = DIRECTION ( 'NONE',  ( 0.0000000000000000000, -0.0000000000000000000, 1.000000000000000000 ) ) ;
#116 = CARTESIAN_POINT ( 'NONE',  ( 0.0000000000000000000, -12.00000000000000900, 62.50000000000000000 ) ) ;
#117 = EDGE_LOOP ( 'NONE', ( #97 ) ) ;
#118 = EDGE_CURVE ( 'NONE', #67, #67, #229, .T. ) ;
#119 = STYLED_ITEM ( 'NONE', ( #83 ), #353 ) ;
#120 = FACE_OUTER_BOUND ( 'NONE', #333, .T. ) ;
#121 = MANIFOLD_SOLID_BREP ( 'C', #225 ) ;
#122 = DIRECTION ( 'NONE',  ( 0.0000000000000000000, -1.000000000000000000, -0.0000000000000000000 ) ) ;
#123 = ADVANCED_FACE ( 'NONE', ( #350, #9 ), #286, .F. ) ;
#124 = ORIENTED_EDGE ( 'NONE', *, *, #57, .F. ) ;
#125 = EDGE_CURVE ( 'NONE', #356, #356, #1, .T. ) ;
#126 = ADVANCED_FACE ( 'NONE', ( #308, #107 ), #186, .T. ) ;
#127 = DIRECTION ( 'NONE',  ( 0.0000000000000000000, 1.000000000000000000, 0.0000000000000000000 ) ) ;
#128 = EDGE_LOOP ( 'NONE', ( #60 ) ) ;
#129 = VERTEX_POINT ( 'NONE', #337 ) ;
#130 = CIRCLE ( 'NONE', #374, 65.00000000000000000 ) ;
#131 = AXIS2_PLACEMENT_3D ( 'NONE', #45, #370, #80 ) ;
#132 = PLANE ( 'NONE',  #279 ) ;
#133 = EDGE_LOOP ( 'NONE', ( #372 ) ) ;
#134 = DIRECTION ( 'NONE',  ( 0.0000000000000000000, 0.0000000000000000000, 1.000000000000000000 ) ) ;
#135 = DIRECTION ( 'NONE',  ( 0.0000000000000000000, 0.0000000000000000000, 1.000000000000000000 ) ) ;
#136 = DIRECTION ( 'NONE',  ( 0.0000000000000000000, 1.000000000000000000, 0.0000000000000000000 ) ) ;
#137 = ORIENTED_EDGE ( 'NONE', *, *, #181, .F. ) ;
#138 = FACE_OUTER_BOUND ( 'NONE', #117, .T. ) ;
#139 = EDGE_CURVE ( 'NONE', #280, #280, #243, .T. ) ;
#140 = CARTESIAN_POINT ( 'NONE',  ( 0.0000000000000000000, -4.500000000000005300, 51.07500000000000300 ) ) ;
#141 = EDGE_CURVE ( 'NONE', #366, #366, #190, .T. ) ;
#142 =( NAMED_UNIT ( * ) PLANE_ANGLE_UNIT ( ) SI_UNIT ( $, .RADIAN. ) );
#143 = APPLICATION_PROTOCOL_DEFINITION ( 'draft international standard', 'automotive_design', 1998, #27 ) ;
#144 = PRESENTATION_STYLE_ASSIGNMENT (( #316 ) ) ;
#145 = EDGE_LOOP ( 'NONE', ( #204 ) ) ;
#146 = PRODUCT ( 'BS1ISOK100104 FULLVAC', 'BS1ISOK100104 FULLVAC', '', ( #226 ) ) ;
#147 = FACE_OUTER_BOUND ( 'NONE', #70, .T. ) ;
#148 = AXIS2_PLACEMENT_3D ( 'NONE', #167, #136, #297 ) ;
#149 = COLOUR_RGB ( '',0.7921568627450980000, 0.8196078431372548800, 0.9333333333333333500 ) ;
#150 = ADVANCED_FACE ( 'NONE', ( #346, #37 ), #26, .T. ) ;
#151 = EDGE_LOOP ( 'NONE', ( #29 ) ) ;
#152 = ORIENTED_EDGE ( 'NONE', *, *, #162, .T. ) ;
#153 = VERTEX_POINT ( 'NONE', #113 ) ;
#154 = EDGE_CURVE ( 'NONE', #129, #129, #103, .T. ) ;
#155 = PRESENTATION_LAYER_ASSIGNMENT (  '', '', ( #119 ) ) ;
#156 = ORIENTED_EDGE ( 'NONE', *, *, #62, .T. ) ;
#157 = DIRECTION ( 'NONE',  ( 0.0000000000000000000, 1.000000000000000000, 0.0000000000000000000 ) ) ;
#158 = VERTEX_POINT ( 'NONE', #54 ) ;
#159 = DIRECTION ( 'NONE',  ( 0.0000000000000000000, 0.0000000000000000000, 1.000000000000000000 ) ) ;
#160 = ADVANCED_FACE ( 'NONE', ( #335, #270 ), #327, .T. ) ;
#161 = DIRECTION ( 'NONE',  ( 0.0000000000000000000, 0.0000000000000000000, 1.000000000000000000 ) ) ;
#162 = EDGE_CURVE ( 'NONE', #56, #56, #130, .T. ) ;
#163 = CARTESIAN_POINT ( 'NONE',  ( 0.0000000000000000000, -6.938893903907228400E-015, 0.0000000000000000000 ) ) ;
#164 = FACE_OUTER_BOUND ( 'NONE', #285, .T. ) ;
#165 = DIRECTION ( 'NONE',  ( 0.0000000000000000000, 1.000000000000000000, 0.0000000000000000000 ) ) ;
#166 = FACE_OUTER_BOUND ( 'NONE', #133, .T. ) ;
#167 = CARTESIAN_POINT ( 'NONE',  ( 0.0000000000000000000, -11.20000000000000800, 0.0000000000000000000 ) ) ;
#168 = DIRECTION ( 'NONE',  ( 0.0000000000000000000, 0.0000000000000000000, 1.000000000000000000 ) ) ;
#169 = ORIENTED_EDGE ( 'NONE', *, *, #260, .T. ) ;
#170 = TOROIDAL_SURFACE ( 'NONE', #275, 65.00000000000000000, 1.499999999999994900 ) ;
#171 =( LENGTH_UNIT ( ) NAMED_UNIT ( * ) SI_UNIT ( .MILLI., .METRE. ) );
#172 =( NAMED_UNIT ( * ) SI_UNIT ( $, .STERADIAN. ) SOLID_ANGLE_UNIT ( ) );
#173 = CIRCLE ( 'NONE', #233, 51.07500000000000300 ) ;
#174 = SHAPE_DEFINITION_REPRESENTATION ( #112, #353 ) ;
#175 = DIRECTION ( 'NONE',  ( 0.0000000000000000000, 1.000000000000000000, 0.0000000000000000000 ) ) ;
#176 = AXIS2_PLACEMENT_3D ( 'NONE', #324, #318, #289 ) ;
#177 = MECHANICAL_DESIGN_GEOMETRIC_PRESENTATION_REPRESENTATION (  '', ( #119 ), #69 ) ;
#178 = ORIENTED_EDGE ( 'NONE', *, *, #201, .T. ) ;
#179 = DIRECTION ( 'NONE',  ( 0.0000000000000000000, 1.000000000000000000, 0.0000000000000000000 ) ) ;
#180 = FACE_BOUND ( 'NONE', #310, .T. ) ;
#181 = EDGE_CURVE ( 'NONE', #10, #10, #93, .T. ) ;
#182 = FILL_AREA_STYLE ('',( #188 ) ) ;
#183 = FACE_BOUND ( 'NONE', #349, .T. ) ;
#184 = ADVANCED_FACE ( 'NONE', ( #319, #99 ), #170, .F. ) ;
#185 = ORIENTED_EDGE ( 'NONE', *, *, #201, .F. ) ;
#186 = CONICAL_SURFACE ( 'NONE', #92, 65.00000000000000000, 0.7853981633974450600 ) ;
#187 = CARTESIAN_POINT ( 'NONE',  ( 0.0000000000000000000, -12.50102254169809700, 0.0000000000000000000 ) ) ;
#188 = FILL_AREA_STYLE_COLOUR ( '', #306 ) ;
#189 = CIRCLE ( 'NONE', #176, 64.82352941176471000 ) ;
#190 = CIRCLE ( 'NONE', #328, 62.50000000000000000 ) ;
#191 = DIRECTION ( 'NONE',  ( 0.0000000000000000000, 1.000000000000000000, 0.0000000000000000000 ) ) ;
#192 = DIRECTION ( 'NONE',  ( -0.0000000000000000000, -1.000000000000000000, -0.0000000000000000000 ) ) ;
#193 = DIRECTION ( 'NONE',  ( 0.0000000000000000000, 1.000000000000000000, 0.0000000000000000000 ) ) ;
#194 = EDGE_LOOP ( 'NONE', ( #109 ) ) ;
#195 = DIRECTION ( 'NONE',  ( 0.0000000000000000000, 0.0000000000000000000, 1.000000000000000000 ) ) ;
#196 = AXIS2_PLACEMENT_3D ( 'NONE', #59, #206, #283 ) ;
#197 = CARTESIAN_POINT ( 'NONE',  ( 0.0000000000000000000, -3.311805698386590900, 0.0000000000000000000 ) ) ;
#198 = CARTESIAN_POINT ( 'NONE',  ( 0.0000000000000000000, -4.500000000000004400, 50.40000000000000600 ) ) ;
#199 = CARTESIAN_POINT ( 'NONE',  ( 0.0000000000000000000, -10.00000000000000900, -52.10000000000000100 ) ) ;
#200 = CIRCLE ( 'NONE', #234, 64.20000000000000300 ) ;
#201 = EDGE_CURVE ( 'NONE', #158, #158, #367, .T. ) ;
#202 = PRODUCT_RELATED_PRODUCT_CATEGORY ( 'part', '', ( #146 ) ) ;
#203 = CARTESIAN_POINT ( 'NONE',  ( 0.0000000000000000000, -7.000000000000008900, -50.40000000000000600 ) ) ;
#204 = ORIENTED_EDGE ( 'NONE', *, *, #118, .F. ) ;
#205 = UNCERTAINTY_MEASURE_WITH_UNIT (LENGTH_MEASURE( 1.000000000000000100E-005 ), #171, 'distance_accuracy_value', 'NONE');
#206 = DIRECTION ( 'NONE',  ( -0.0000000000000000000, -1.000000000000000000, -0.0000000000000000000 ) ) ;
#207 = AXIS2_PLACEMENT_3D ( 'NONE', #344, #341, #115 ) ;
#208 = EDGE_LOOP ( 'NONE', ( #21 ) ) ;
#209 = PLANE ( 'NONE',  #313 ) ;
#210 = TOROIDAL_SURFACE ( 'NONE', #30, 64.79999999999999700, 0.2000000000000078100 ) ;
#211 = ORIENTED_EDGE ( 'NONE', *, *, #213, .F. ) ;
#212 = FACE_BOUND ( 'NONE', #355, .T. ) ;
#213 = EDGE_CURVE ( 'NONE', #5, #5, #311, .T. ) ;
#214 = DIRECTION ( 'NONE',  ( 0.0000000000000000000, 1.000000000000000000, 0.0000000000000000000 ) ) ;
#215 = EDGE_LOOP ( 'NONE', ( #46 ) ) ;
#216 = SURFACE_SIDE_STYLE ('',( #219 ) ) ;
#217 = EDGE_CURVE ( 'NONE', #248, #248, #200, .T. ) ;
#218 = DIRECTION ( 'NONE',  ( 0.0000000000000000000, 1.000000000000000000, 0.0000000000000000000 ) ) ;
#219 = SURFACE_STYLE_FILL_AREA ( #182 ) ;
#220 = CARTESIAN_POINT ( 'NONE',  ( 0.0000000000000000000, -12.00000000000000900, 0.0000000000000000000 ) ) ;
#221 = ORIENTED_EDGE ( 'NONE', *, *, #293, .F. ) ;
#222 = CARTESIAN_POINT ( 'NONE',  ( 49.14999999999999900, -4.500000000000004400, 0.0000000000000000000 ) ) ;
#223 = PLANE ( 'NONE',  #35 ) ;
#224 = CARTESIAN_POINT ( 'NONE',  ( 0.0000000000000000000, -6.938893903907228400E-015, 0.0000000000000000000 ) ) ;
#225 = CLOSED_SHELL ( 'NONE', ( #38, #294, #95, #239, #123, #320, #237, #322, #160, #184, #6, #150, #126, #100, #34, #315 ) ) ;
#226 = PRODUCT_CONTEXT ( 'NONE', #27, 'mechanical' ) ;
#227 = CARTESIAN_POINT ( 'NONE',  ( 0.0000000000000000000, -6.688194301613425100, 65.00000000000000000 ) ) ;
#228 = CARTESIAN_POINT ( 'NONE',  ( 0.0000000000000000000, -12.50102254169809700, 0.0000000000000000000 ) ) ;
#229 = CIRCLE ( 'NONE', #339, 62.50000000000000000 ) ;
#230 = EDGE_LOOP ( 'NONE', ( #258 ) ) ;
#231 = CIRCLE ( 'NONE', #331, 52.10000000000000100 ) ;
#232 = DIRECTION ( 'NONE',  ( 0.0000000000000000000, 0.0000000000000000000, 1.000000000000000000 ) ) ;
#233 = AXIS2_PLACEMENT_3D ( 'NONE', #323, #14, #361 ) ;
#234 = AXIS2_PLACEMENT_3D ( 'NONE', #369, #218, #20 ) ;
#235 = ORIENTED_EDGE ( 'NONE', *, *, #217, .F. ) ;
#236 = VERTEX_POINT ( 'NONE', #199 ) ;
#237 = ADVANCED_FACE ( 'NONE', ( #259, #212 ), #42, .T. ) ;
#238 = AXIS2_PLACEMENT_3D ( 'NONE', #32, #214, #64 ) ;
#239 = ADVANCED_FACE ( 'NONE', ( #256, #120 ), #47, .T. ) ;
#240 = FACE_OUTER_BOUND ( 'NONE', #365, .T. ) ;
#241 = FACE_OUTER_BOUND ( 'NONE', #230, .T. ) ;
#242 = ORIENTED_EDGE ( 'NONE', *, *, #78, .F. ) ;
#243 = CIRCLE ( 'NONE', #307, 50.40000000000000600 ) ;
#244 = AXIS2_PLACEMENT_3D ( 'NONE', #330, #108, #168 ) ;
#245 = DIRECTION ( 'NONE',  ( 0.0000000000000000000, 1.000000000000000000, 0.0000000000000000000 ) ) ;
#246 =( NAMED_UNIT ( * ) PLANE_ANGLE_UNIT ( ) SI_UNIT ( $, .RADIAN. ) );
#247 = CIRCLE ( 'NONE', #348, 64.82352941176469600 ) ;
#248 = VERTEX_POINT ( 'NONE', #84 ) ;
#249 = DIRECTION ( 'NONE',  ( 0.0000000000000000000, 1.000000000000000000, 0.0000000000000000000 ) ) ;
#250 = ORIENTED_EDGE ( 'NONE', *, *, #125, .F. ) ;
#251 = AXIS2_PLACEMENT_3D ( 'NONE', #329, #336, #43 ) ;
#252 = CARTESIAN_POINT ( 'NONE',  ( 62.50000000000000000, -10.00000000000000900, 0.0000000000000000000 ) ) ;
#253 = DIRECTION ( 'NONE',  ( 1.000000000000000000, 0.0000000000000000000, 0.0000000000000000000 ) ) ;
#254 = CIRCLE ( 'NONE', #238, 52.10000000000000100 ) ;
#255 = STYLED_ITEM ( 'NONE', ( #144 ), #121 ) ;
#256 = FACE_BOUND ( 'NONE', #65, .T. ) ;
#257 = CARTESIAN_POINT ( 'NONE',  ( 0.0000000000000000000, -6.688194301613425100, 0.0000000000000000000 ) ) ;
#258 = ORIENTED_EDGE ( 'NONE', *, *, #217, .T. ) ;
#259 = FACE_OUTER_BOUND ( 'NONE', #151, .T. ) ;
#260 = EDGE_CURVE ( 'NONE', #236, #236, #231, .T. ) ;
#261 = PRODUCT_DEFINITION ( 'UNKNOWN', '', #368, #305 ) ;
#262 = EDGE_LOOP ( 'NONE', ( #284 ) ) ;
#263 = DIRECTION ( 'NONE',  ( 0.0000000000000000000, 0.0000000000000000000, -1.000000000000000000 ) ) ;
#264 = CIRCLE ( 'NONE', #357, 64.20000000000000300 ) ;
#265 = SURFACE_STYLE_FILL_AREA ( #338 ) ;
#266 = AXIS2_PLACEMENT_3D ( 'NONE', #347, #28, #3 ) ;
#267 = CARTESIAN_POINT ( 'NONE',  ( 0.0000000000000000000, -0.8000000000000072600, 0.0000000000000000000 ) ) ;
#268 = EDGE_LOOP ( 'NONE', ( #211 ) ) ;
#269 = DIRECTION ( 'NONE',  ( 0.0000000000000000000, 0.0000000000000000000, 1.000000000000000000 ) ) ;
#270 = FACE_OUTER_BOUND ( 'NONE', #268, .T. ) ;
#271 = DIRECTION ( 'NONE',  ( 0.0000000000000000000, -1.000000000000000000, -0.0000000000000000000 ) ) ;
#272 = PRESENTATION_LAYER_ASSIGNMENT (  '', '', ( #255 ) ) ;
#273 = DIRECTION ( 'NONE',  ( 0.0000000000000000000, 1.000000000000000000, 0.0000000000000000000 ) ) ;
#274 = FACE_OUTER_BOUND ( 'NONE', #12, .T. ) ;
#275 = AXIS2_PLACEMENT_3D ( 'NONE', #110, #249, #326 ) ;
#276 = ORIENTED_EDGE ( 'NONE', *, *, #118, .T. ) ;
#277 = CARTESIAN_POINT ( 'NONE',  ( 0.0000000000000000000, -12.00000000000000900, 64.20000000000000300 ) ) ;
#278 = ORIENTED_EDGE ( 'NONE', *, *, #293, .T. ) ;
#279 = AXIS2_PLACEMENT_3D ( 'NONE', #15, #16, #41 ) ;
#280 = VERTEX_POINT ( 'NONE', #203 ) ;
#281 = SURFACE_STYLE_USAGE ( .BOTH. , #53 ) ;
#282 = DIRECTION ( 'NONE',  ( 0.0000000000000000000, 0.0000000000000000000, -1.000000000000000000 ) ) ;
#283 = DIRECTION ( 'NONE',  ( 0.0000000000000000000, 0.0000000000000000000, -1.000000000000000000 ) ) ;
#284 = ORIENTED_EDGE ( 'NONE', *, *, #139, .F. ) ;
#285 = EDGE_LOOP ( 'NONE', ( #276 ) ) ;
#286 = CYLINDRICAL_SURFACE ( 'NONE', #290, 51.07500000000000300 ) ;
#287 = ORIENTED_EDGE ( 'NONE', *, *, #141, .F. ) ;
#288 = CARTESIAN_POINT ( 'NONE',  ( 64.20000000000000300, -12.00000000000000900, 0.0000000000000000000 ) ) ;
#289 = DIRECTION ( 'NONE',  ( 0.0000000000000000000, 0.0000000000000000000, 1.000000000000000000 ) ) ;
#290 = AXIS2_PLACEMENT_3D ( 'NONE', #187, #127, #159 ) ;
#291 = FACE_OUTER_BOUND ( 'NONE', #40, .T. ) ;
#292 = EDGE_LOOP ( 'NONE', ( #278 ) ) ;
#293 = EDGE_CURVE ( 'NONE', #89, #89, #264, .T. ) ;
#294 = ADVANCED_FACE ( 'NONE', ( #111, #33 ), #223, .T. ) ;
#295 = EDGE_LOOP ( 'NONE', ( #55 ) ) ;
#296 = FACE_OUTER_BOUND ( 'NONE', #325, .T. ) ;
#297 = DIRECTION ( 'NONE',  ( 0.0000000000000000000, 0.0000000000000000000, 1.000000000000000000 ) ) ;
#298 = CYLINDRICAL_SURFACE ( 'NONE', #79, 65.00000000000000000 ) ;
#299 = DIRECTION ( 'NONE',  ( 0.0000000000000000000, 0.0000000000000000000, 1.000000000000000000 ) ) ;
#300 = DIRECTION ( 'NONE',  ( 0.0000000000000000000, -0.0000000000000000000, 1.000000000000000000 ) ) ;
#301 = AXIS2_PLACEMENT_3D ( 'NONE', #222, #165, #300 ) ;
#302 = ORIENTED_EDGE ( 'NONE', *, *, #181, .T. ) ;
#303 = APPLICATION_PROTOCOL_DEFINITION ( 'draft international standard', 'automotive_design', 1998, #2 ) ;
#304 =( NAMED_UNIT ( * ) SI_UNIT ( $, .STERADIAN. ) SOLID_ANGLE_UNIT ( ) );
#305 = PRODUCT_DEFINITION_CONTEXT ( 'detailed design', #2, 'design' ) ;
#306 = COLOUR_RGB ( '',0.7921568627450980000, 0.8196078431372548800, 0.9333333333333333500 ) ;
#307 = AXIS2_PLACEMENT_3D ( 'NONE', #351, #94, #263 ) ;
#308 = FACE_BOUND ( 'NONE', #292, .T. ) ;
#309 = CARTESIAN_POINT ( 'NONE',  ( 0.0000000000000000000, -3.311805698386590900, 65.00000000000000000 ) ) ;
#310 = EDGE_LOOP ( 'NONE', ( #36 ) ) ;
#311 = CIRCLE ( 'NONE', #244, 65.00000000000000000 ) ;
#312 = AXIS2_PLACEMENT_3D ( 'NONE', #23, #49, #253 ) ;
#313 = AXIS2_PLACEMENT_3D ( 'NONE', #288, #122, #314 ) ;
#314 = DIRECTION ( 'NONE',  ( 0.0000000000000000000, 0.0000000000000000000, -1.000000000000000000 ) ) ;
#315 = ADVANCED_FACE ( 'NONE', ( #138, #342 ), #58, .F. ) ;
#316 = SURFACE_STYLE_USAGE ( .BOTH. , #216 ) ;
#317 = FACE_BOUND ( 'NONE', #262, .T. ) ;
#318 = DIRECTION ( 'NONE',  ( 0.0000000000000000000, 1.000000000000000000, 0.0000000000000000000 ) ) ;
#319 = FACE_OUTER_BOUND ( 'NONE', #215, .T. ) ;
#320 = ADVANCED_FACE ( 'NONE', ( #241, #183 ), #343, .T. ) ;
#321 = AXIS2_PLACEMENT_3D ( 'NONE', #224, #192, #51 ) ;
#322 = ADVANCED_FACE ( 'NONE', ( #166, #90 ), #298, .T. ) ;
#323 = CARTESIAN_POINT ( 'NONE',  ( 0.0000000000000000000, -4.500000000000005300, 0.0000000000000000000 ) ) ;
#324 = CARTESIAN_POINT ( 'NONE',  ( 0.0000000000000000000, -6.489583207305955200, 0.0000000000000000000 ) ) ;
#325 = EDGE_LOOP ( 'NONE', ( #340 ) ) ;
#326 = DIRECTION ( 'NONE',  ( 0.0000000000000000000, 0.0000000000000000000, 1.000000000000000000 ) ) ;
#327 = TOROIDAL_SURFACE ( 'NONE', #352, 64.79999999999999700, 0.2000000000000074200 ) ;
#328 = AXIS2_PLACEMENT_3D ( 'NONE', #359, #191, #75 ) ;
#329 = CARTESIAN_POINT ( 'NONE',  ( 0.0000000000000000000, -6.938893903907228400E-015, 0.0000000000000000000 ) ) ;
#330 = CARTESIAN_POINT ( 'NONE',  ( 0.0000000000000000000, -3.311805698386590900, 0.0000000000000000000 ) ) ;
#331 = AXIS2_PLACEMENT_3D ( 'NONE', #363, #73, #19 ) ;
#332 = DIRECTION ( 'NONE',  ( 0.0000000000000000000, 1.000000000000000000, 0.0000000000000000000 ) ) ;
#333 = EDGE_LOOP ( 'NONE', ( #364 ) ) ;
#334 = UNCERTAINTY_MEASURE_WITH_UNIT (LENGTH_MEASURE( 1.000000000000000100E-005 ), #72, 'distance_accuracy_value', 'NONE');
#335 = FACE_OUTER_BOUND ( 'NONE', #208, .T. ) ;
#336 = DIRECTION ( 'NONE',  ( -0.0000000000000000000, -1.000000000000000000, -0.0000000000000000000 ) ) ;
#337 = CARTESIAN_POINT ( 'NONE',  ( 0.0000000000000000000, -6.938893903907228400E-015, 51.07500000000000300 ) ) ;
#338 = FILL_AREA_STYLE ('',( #88 ) ) ;
#339 = AXIS2_PLACEMENT_3D ( 'NONE', #39, #245, #134 ) ;
#340 = ORIENTED_EDGE ( 'NONE', *, *, #62, .F. ) ;
#341 = DIRECTION ( 'NONE',  ( 0.0000000000000000000, 1.000000000000000000, 0.0000000000000000000 ) ) ;
#342 = FACE_OUTER_BOUND ( 'NONE', #17, .T. ) ;
#343 = PLANE ( 'NONE',  #207 ) ;
#344 = CARTESIAN_POINT ( 'NONE',  ( 51.07500000000000300, -6.889063427038953100E-015, 0.0000000000000000000 ) ) ;
#345 = EDGE_LOOP ( 'NONE', ( #360 ) ) ;
#346 = FACE_OUTER_BOUND ( 'NONE', #82, .T. ) ;
#347 = CARTESIAN_POINT ( 'NONE',  ( 0.0000000000000000000, -12.50102254169809700, 0.0000000000000000000 ) ) ;
#348 = AXIS2_PLACEMENT_3D ( 'NONE', #7, #71, #269 ) ;
#349 = EDGE_LOOP ( 'NONE', ( #50 ) ) ;
#350 = FACE_OUTER_BOUND ( 'NONE', #295, .T. ) ;
#351 = CARTESIAN_POINT ( 'NONE',  ( 0.0000000000000000000, -7.000000000000008900, 0.0000000000000000000 ) ) ;
#352 = AXIS2_PLACEMENT_3D ( 'NONE', #197, #44, #22 ) ;
#353 = ADVANCED_BREP_SHAPE_REPRESENTATION ( 'BS1ISOK100104 FULLVAC', ( #121, #312 ), #101 ) ;
#354 = FACE_OUTER_BOUND ( 'NONE', #128, .T. ) ;
#355 = EDGE_LOOP ( 'NONE', ( #235 ) ) ;
#356 = VERTEX_POINT ( 'NONE', #86 ) ;
#357 = AXIS2_PLACEMENT_3D ( 'NONE', #220, #273, #299 ) ;
#358 = VERTEX_POINT ( 'NONE', #81 ) ;
#359 = CARTESIAN_POINT ( 'NONE',  ( 0.0000000000000000000, -12.00000000000000900, 0.0000000000000000000 ) ) ;
#360 = ORIENTED_EDGE ( 'NONE', *, *, #85, .F. ) ;
#361 = DIRECTION ( 'NONE',  ( 0.0000000000000000000, 0.0000000000000000000, 1.000000000000000000 ) ) ;
#362 = CARTESIAN_POINT ( 'NONE',  ( 0.0000000000000000000, -12.50102254169809700, 0.0000000000000000000 ) ) ;
#363 = CARTESIAN_POINT ( 'NONE',  ( 0.0000000000000000000, -10.00000000000000900, 0.0000000000000000000 ) ) ;
#364 = ORIENTED_EDGE ( 'NONE', *, *, #85, .T. ) ;
#365 = EDGE_LOOP ( 'NONE', ( #152 ) ) ;
#366 = VERTEX_POINT ( 'NONE', #116 ) ;
#367 = CIRCLE ( 'NONE', #148, 65.00000000000000000 ) ;
#368 = PRODUCT_DEFINITION_FORMATION_WITH_SPECIFIED_SOURCE ( 'ANY', '', #146, .NOT_KNOWN. ) ;
#369 = CARTESIAN_POINT ( 'NONE',  ( 0.0000000000000000000, -6.938893903907228400E-015, 0.0000000000000000000 ) ) ;
#370 = DIRECTION ( 'NONE',  ( 0.0000000000000000000, 1.000000000000000000, 0.0000000000000000000 ) ) ;
#371 = CARTESIAN_POINT ( 'NONE',  ( 0.0000000000000000000, -10.00000000000000900, 62.50000000000000000 ) ) ;
#372 = ORIENTED_EDGE ( 'NONE', *, *, #213, .T. ) ;
#373 =( LENGTH_UNIT ( ) NAMED_UNIT ( * ) SI_UNIT ( .MILLI., .METRE. ) );
#374 = AXIS2_PLACEMENT_3D ( 'NONE', #77, #332, #135 ) ;
ENDSEC;
END-ISO-10303-21;
